Till There Was You - The Beatles chords

Singer/Band: The Beatles


[Intro]
e|-1-----|-----------|-------|------| B|---1---|-----------|-3-----|------|
G|-----2-|-----------|---3---|------| D|-------|-4---------|-----5-|------|
A|-------|-----------|-------|-3----| E|-------|-----------|-------|------|
[F] [F#dim7] [Gm7] [C7+9]
[Verse]
There were [F]bells on a [F#dim7]hill
But I [Gm7]never heard them [Bbm]ringing
No I n[F]ever h[Am]eard th[G#m]em at [Gm7]all [C7+9]
Till there was [F]you [Gm7] [C7+9]
There were [F]birds in the [F#dim7]sky
But I [Gm7]never saw them [Bbm]winging
No I n[F]ever s[Am]aw th[G#m]em at [Gm7]all [C7+9]
Till there was [F]you [F#dim7]
[Chorus]
Then there was [Bb]music [Bbm] and wonderful [F]roses
They [D] tell me in [Gm7]sweet [Gmmaj7]
fragrant [G7]meadows of [C7]dawn [C7+5]and you
[Verse]
There was [F]love all [F#dim7]around
But I [Gm7]never heard it [Bbm]singing
No I [F]never [Am]heard [G#m]it at [Gm7]all [C7+9]
Till there was [F]you [Gm7] [C7+9]
[Solo]
e|-----|---1-----|---------|-----------|---------|---3-5-3-|-5-3-5-3-|
B|-----|-1---3-1-|---------|-----1-4---|-3-1-----|---3-3-3-|-3-3-3-3-|
G|-2-3-|---------|-3-2-0---|---2-------|-----3-2-|-3-3-3-3-|-3-3-3-3-|
D|-----|---------|-------3-|-4---------|---------|---------|---------|
A|-----|---------|---------|-----------|---------|---------|---------|
E|-----|---------|---------|-----------|---------|---------|---------|
[F] [F#dim7] [Gm]
e|---6-8-6-|-8-6-8-6-|----10-|-8--7---|-6--|-5----|-1-1---|-----|
B|---6-6-6-|-6-6-6-6-|----10-|-5--4---|-3--|-5----|-----1-|-----|
G|-6-6-6-6-|-6-6-6-6-|----10-|-5--4---|-3--|-3----|-------|-2---|
D|---------|---------|-10-- -|-7--6---|-5--|-5----|-------|-----|
A|---------|---------|-------|--------|----|-3----|-------|---0-|
E|---------|---------|-------|--------|----|-3----|-------|-----|
[Bbm] [F] [Am] [G#m] [Gm7] [C7+9] [F]
e|-----------|-----1-| B|-----------|---1---| G|-----------|-2-----|
D|---1-4-----|-------| A|-3---------|-------| E|-----------|-------|
B7+9 Then there was
[Chorus]
[Bb]music [Bbm] and wonderful [F]roses
They [D] tell me in [Gm7]sweet [Gmmaj7]
fragrant [G7]meadows of [C7]dawn [C7+5]and you
[Verse]
There was [F]love all [F#dim7]around
But I [Gm7]never heard it [Bbm]singing
No I [F]never [Am][G#m]heard it at [Gm7]all [C7+9]
Till there was [F]you
[Outro]
[C7][B7]Tiii[C7]iiill there was [F]you [C#] [F] [Fmaj7]
b Transpose down # Transpose up
  Auto scroll up   Auto scroll down
Font size